MILLENIUM CROUZET

Programma per capanile

Vedere l'argomento precedente Vedere l'argomento seguente Andare in basso

Programma per capanile

Messaggio  Luigi.B il Gio Dic 10, 2015 1:18 pm

Buon giorno, vorrei utilizzare un plc m3 per pilotare 2 campane,
una segna le ore e l'altra i quarti d'ora.
faccio uno schema in funzione dell'ora:

orario----------------rintocchi   campana H----------------rintocchi  campana  Q H
00:00
00:15--------------------------------------------------------------1
00:30--------------------------------------------------------------2
00:45--------------------------------------------------------------3
01:00----------------------------1      
01:15----------------------------1----------------------------------1
01:30----------------------------1----------------------------------2
01:45----------------------------1----------------------------------3
02:00----------------------------2                
02:15----------------------------2----------------------------------1
02:30----------------------------2----------------------------------2
02:45----------------------------2----------------------------------3
03:00----------------------------3                
03:15----------------------------3----------------------------------1
03:30----------------------------3----------------------------------2
03:45----------------------------3----------------------------------3
04:00----------------------------4
cosi via fino alle 12, inoltre la possibilità di correggere l'ora da display.
Grazie

Luigi.B

Messaggi : 1
Data d'iscrizione : 09.12.15

Vedi il profilo dell'utente

Tornare in alto Andare in basso

Programmatore orario

Messaggio  Tecno il Gio Feb 04, 2016 6:43 am

Scusa il ritardo ma ho visto solo adesso la richiesta , ha i risolto o ti occorre ancora una mano ?

Saluti

Tecno

Luigi.B ha scritto:Buon giorno, vorrei utilizzare un plc m3 per pilotare 2 campane,
una segna le ore e l'altra i quarti d'ora.
faccio uno schema in funzione dell'ora:

orario----------------rintocchi   campana H----------------rintocchi  campana  Q H
00:00
00:15--------------------------------------------------------------1
00:30--------------------------------------------------------------2
00:45--------------------------------------------------------------3
01:00----------------------------1      
01:15----------------------------1----------------------------------1
01:30----------------------------1----------------------------------2
01:45----------------------------1----------------------------------3
02:00----------------------------2                
02:15----------------------------2----------------------------------1
02:30----------------------------2----------------------------------2
02:45----------------------------2----------------------------------3
03:00----------------------------3                
03:15----------------------------3----------------------------------1
03:30----------------------------3----------------------------------2
03:45----------------------------3----------------------------------3
04:00----------------------------4
cosi via fino alle 12, inoltre la possibilità di correggere l'ora da display.
Grazie

Tecno

Messaggi : 21
Data d'iscrizione : 24.09.10
Età : 52
Località : Corte Franca BS

Vedi il profilo dell'utente http://www.tecno-automazioni.com

Tornare in alto Andare in basso

Vedere l'argomento precedente Vedere l'argomento seguente Tornare in alto

- Argomenti simili

 
Permessi di questa sezione del forum:
Non puoi rispondere agli argomenti in questo forum